Heartbeat guitar tabs

Heartbeat guitar tabs DEFAULT

Heartbeat

Capo on 5th fret

AmF It leaves me feeling seasick, baby CEm7 Kkum gateun hyeonshil gi-piga juna-bwa AmF It spins me round and drives me crazy CEm7 Hanajil ddeun dal gateun naeinga-bwa F Manyak na honja yeo-damyeon C Hoksi nunmul nadamyeon Am Pogi haesulji molla Em7 Lost at sea F But my heart's still on fire C With a burning desire AmEm7 Dasi neol chal-jeul geoya unmyeong cheoreom Am I wish that you would love (love) me (me) FCEm7 Eoje-cheoreom dasi i-son nohji malgo Am And every time my heart (heart) beats (beats) FCEm7 Bal majwo-bwa dasi doneun hemaeiji anhadorok AmF Unmyeongul neukkyeo neo eo eo eo neo CEm7 Unmyeongul neukkyeo nan nan nan nan Am When you hear my heartbeat, baby F You give me a new life, you give me a new birth C I feel your heartbeat away Em7 I've been losin' my mind, I've been cravin' my shine Am I know me before you was a ready-made me F But you designate me and you resume me C I've been calling your name in this universe Em7 (now I need no space) I got youniverse, done F Neol mannangeon C I ujuga bijeonaen han pyeonul deulama gata Am Sumanhaedeon Em7 Hemaeim kkeuti boijiga anhdeon banghwang F I miro sogeseo naleul ikkeureojul neo C Neoneun naui bich ija naui guwon AmEm7 I miro kkeute kkaiji ni soneul nochi anheullae Am I wish that you would love (love) me (me) FCEm7 Eoje-cheoreom dasi i-son nohji malgo Am And every time my heart (heart) beats (beats) FCEm7 Bal majwo-bwa dasi doneun hemaeiji anhadorok AmF Unmyeongul neukkyeo neo eo eo eo neo CEm7 Unmyeongul neukkyeo nan nan nan nan AmF Unmyeongul neukkyeo neo eo eo eo neo CEm7 Unmyeongul neukkyeo nan nan nan nan FCAmEm7 My heart's on fire for your love FCAmG Oh, my heart's on fire for your love Am I wish that you would love (love) me (me) FCEm7 Eoje-cheoreom dasi i-son nohji malgo Am And every time my heart (heart) beats (beats) FCEm7 Bal majwo-bwa dasi doneun hemaeiji anhadorok FC Unmyeongul neukkyeo neo eo eo eo neo AmEm7 Unmyeongul neukkyeo nan nan nan nan FC Unmyeongul neukkyeo neo eo eo eo neo AmEm7 Unmyeongul neukkyeo nan nan nan nan
Sours: https://www.e-chords.com/

In The House In A Heartbeat Tab (ver 2) - John Murphy

In The House In A Heartbeat Tab  In The House In AA Heartbeat Tab by John Murphy you might also like these songs: 28 Days Later - In The House - In A Heartbeat Tabby Misc Soundtrack Mr Brightside Bass Tabby Killers Use Somebody Chordsby Kings Of Leon In The House In A Heartbeat Tabat 911Tabs.com   + to speed up (numpad) - to slow down (numpad) Esc to stop Help In The House In A Heartbeat tab by John Murphy, www.Ultimate-Guitar.Com Listen to In The House In A Heartbeat Add to favourites Tuning (this tab): Drop A# [ A#FA#D#GC ] Difficulty: intermediate tf_artist = "John Murphy"; tf_song = "In The House In A Heartbeat"; ----------------------------------------------------------------------------- In a Heartbeat - John Murphy ----------------------------------------------------------------------------- Tabbed by: Quantum Solace Email: [email protected] Tuning: D-A#-D-G-B-E If you're here looking at this tab, then you may already know that this is the theme from the movie, 28 Weeks Later. This song is awesome! It may be a little confusing at so please listen closely to the song before and while you learn this song. You don't to it's just a suggestion anyways have fun performing this song in front of all your buddies. remember that the tuning is very different for this tab, so make sure to tune your to the proper specifications or else it will sound like crap. Email me if you have any or comments or corrections to offer. Introduction: Best to listen to song to figure out beat measures (4/4). But start out with light distortion. Play the bar chord only once before you entering ending. e|---------------------------------------------------------------------------| B|---------------------------------------------------------------------------| G|---------------------------------------------------------------------------| D|----------------------------------------------0-0-0-0-2-2-2-2-3-3-3-3------| A#|--3-3-3-3-4-4-4-4-6-6-6-6-7-7-7-7---0--0--0--0-0-0-0-0-0-0-0-0-0-0-0------| D|---0-0-0-0-0-0-0-0-0-0-0-0-0-0-0-0--11-11-11-11----------------------------| e|--------------------------------------------------------------------|------| B|--------------------------------------------------------------------|------| G|--------------------------------------------------------------------|------| D|--------------------------------------------------------------------|------| A#|-3-3-3-3-4-4-4-4-6-6-6-6-7-7-7-7---3-3-3-3-4-4-4-4-6-6-6-6-7-7-7-7-|((7))-| D|--3-3-3-3-3-3-3-3-3-3-3-3-3-3-3-3---5-5-5-5-5-5-5-5-5-5-5-5-5-5-5-5-|((5))-| Ending: Play twice and let notes ring. A Heartbeat";
Sours: https://www.yourchords.com/213489/John-Murphy/In-The-House-In-A-Heartbeat-ver-2-Tab/
  1. Json special characters
  2. Slice mongodb
  3. Dick smith auto sales
Heartbeat digital guitar tab. Contains printable guitar tab plus an interactive, downloadable digital guitar tab file.
  • Contains complete lyrics
  • This product is available worldwide

Title:

Heartbeat

By:

Buddy Holly

Instruments:

Voice, range: G#4-E5Guitar 1Guitar 2Strum

Scorings:

Guitar TAB

Guitar/Vocal

Original Published Key:

A Major

Product Type:

Musicnotes

Product #:

MN0070474

Price:

$5.79

Includes 1 print + interactive copy. Each additional print is $3.99

Number of Pages:

5

Lyrics Begin:

Heartbeat, why do you miss when my baby kisses me?

The Arrangement Details Tab gives you detailed information about this particular arrangement of Heartbeat - not necessarily the song.
Not the arrangement you were looking for?View All Arrangements

By:

Buddy Holly

Number of Pages:

5

Form:

Song

Instruments:

Voice, range: G#4-E5Guitar 1Guitar 2Strum

Scorings:

Guitar TAB

Guitar/Vocal

Original Published Key:

A Major

Product Type:

Musicnotes

Product #:

MN0070474

Metronome:

q = 152

Notation:

Guitar TAB

Styles:

Pop Rock

Rockabilly

Rock & Roll

The Song Details Tab gives you detailed information about this song, Heartbeat

There are no reviews written for Heartbeat.
In order to write a review on digital sheet music you must first have purchased the item.

Sours: https://www.musicnotes.com/sheetmusic/mtd.asp?ppn=MN0070474
BTS - Heartbeat (Easy Guitar Tabs Tutorial)

Jose Gonzalez – Heartbeats tab

Jose Gonzalez - HeartbeatsThis is the correct way to play Heartbeats. Other tabs sound similar but this is the correct way.Please note tuning and capo on 1st fret.Tuning - D-A-D-F#-B-ECapo 1st FretJosé González - Heartbeats

E ||--------------------------------|--------------------------------|B ||--------------------------------|---------------------------0----|F#||---------------3----------------|---------------3----------------|D ||------------0-----------0-------|------------0-----------0-------|A ||-----4h-5-5------4h-5-5----5-0--|-----4h-5-5------4h-5-5----5-0--|D ||--0-----------------------------|--0-----------------------------|

------------------------------|-------------------------------|----||----------0-------------------|-------------------------------|----||-----------------------0------|----------0---------------0----|----||-------4----4------------4----|-------0------0--------0-------|----||--2--2---------0h-2-2---------|-----5------5---4h-5-5------0--|----||---------------------------4--|--5----------------------------|----||

E ||--------------------------------||B ||--------------------------------||F#||---------------3----------------||D ||----------0-----------0---------||A ||-----4h-5---5----4h-5---5--5-0--||D ||--0-----------------------------||

The later part plus the ending strum

------------------------------|------------------------------|------------------------------|------------------------------|----------0-------------0-----|----------0-------------0-----|-------0------0------0------0-|-------0------0------0------0-|-----7------7------7------7---|-----7------7------7------7---|--7-------------7-------------|--7-------------7-------------|

------------------------------|------------------------------|------------------------------|------------------------------|----------0-------------0-----|----------0-------------0-----|-------0------0------0------0-|-------0------0------0------0-|-----5------5------5------5---|-----5------5------5------5---|--5-------------5-------------|--5-------------5-------------|

------------------------------|------------------------------|------------------------------|------------------------------|----------0-------------0-----|----------0-------------0-----|-------0------0------7------0-|-------0------0------0------0-|-----7------7------7------7---|-----7------7------7------7---|--7-------------7-------------|--7-------------7-------------|

------------------------------|-----------------------------|-------||------------------------------|-----------------------------|-------||----------0-------------0-----|----------0-------------0----|---3---||-------0------0------0------0-|-------0------0------0-------|---0---||-----5------5------5------5---|-----5------5------5------0--|---0---||--5-------------5-------------|--5-------------5------------|---0---||

Any questions please mail me at: [email protected]
Sours: https://www.guitaretab.com/j/jose-gonzalez/45952.html

Guitar tabs heartbeat

Heartbeat

Verse 1

Let i[Em]it slide

 

All the choices I made

Let it[B]it burn

 

As it rolls down my face

Let it[G]it fall

Just to be [Am]the one again

But if I w[Bm]want

 

I won't be loved by you at all

Let it[Em]it slip

 

Every promise I break

Let it [B]burn

 

All the blows that we trade

Let it [G]fall

'cause this pla[Am]place has been condemned

And we both k[Bm]know

That we can't [B]be here anymore

 

Instrumental

[Em][A][D]

Chorus

Y[C]Yeah, I know I pulled a pin on your heart

But I l[Em]lost sight of the

target when you let down your guard

Should've run[D]run, run a hundred miles

 

Never look back, Jack, 'cause now we can't backtrack

And yeah, I know what you'll[C]you'll say, nothing can change

No one to blame, it's on the t[Em]tip of my tongue

Here it comes, this is crazy, you should k[D]know that

 

I would go back in a heartbeat

 

Just to make your heart beat

[Em]

Verse 2

L[Em]Let it fail

 

It's too late to be saved

Let it [B]roll

 

They're all across this grey

Let it [G]blaze

There's a d[Am]darkness in the flame

And it's [Bm]lost

 

And we can't bear it anymore

Let it [Em]slide

 

I can't start it again

Let it b[B]burn

 

While it's held in my hand

Let it [G]fall

'cause this j[Am]journey is at its end

It's only[Em]only luck

Th[B]That I was loved by you at all

 

Instrumental

[Em][A][D]

Chorus

Y[C]Yeah, I know I pulled a pin on your heart

But I l[Em]lost sight of the target

when you let down your guard

Should've ru[D]run, run a hundred miles

 

Never look back track, 'cause now we can backtrack

And yeah, I know what you'll[C]you'll say, nothing can change

No one to blame, it's on the [Em]tip of my tongue

Here it comes, this is c[D]crazy, you should know that

 

I would go back in a heartbeat

 

Just to make your heart beat

 

Chorus

Yea[C]Yeah, I know I pulled a pin on your heart

But I lo[Em]lost sight of the target

when you let down your guard

Should've r[D]run, run a hundred miles

 

Never look back track, 'cause now we can backtrack

And[C]And yeah, I know what you'll say, nothing can change

No one to blame, it's on the [Em]tip of my tongue

Here it comes, this is crazy, you s[D]should know that

 

I would go back in a heartbeat

Just to make your heart bea[G]beat

Sours: https://chordseasy.com/
How to Play Heartbeats on Guitar (José González)

Buddy Holly - Heartbeatelectric guitar lesson played by Ric Tester
He teaches us all the electric guitar parts of the song
Download the TABunder the video



BUDDY HOLLY HEARTBEAT TAB


Part 1

e-12-12.----12-14.----12.----10-10.----10-12.----10.--------------------
B-14-14.----14-15.----14.----12-12.----12-14.----12.--------------------
G-----------------------------------------------------------------------
D-----------------------------------------------------------------------
A-----------------------------------------------------------------------
E-----------------------------------------------------------------------


e-12-12.----12-14.----12.----10-10.----10-12.----10.--------------------
B-14-14.----14-15.----14.----12-12.----12-14.----12.--------------------
G-----------------------------------------------------------------------
D-----------------------------------------------------------------------
A-----------------------------------------------------------------------
E-----------------------------------------------------------------------


Part 2

e-----------------------------------------------------------------------
B-------7---5---7---5-------5---------7---5---7---5-------5-------------
G------6----------------6------------6----------------6-----------------
D-7---7-------------------------7---7-----------------------------------
A-----------------------------------------------------------------------
E-----------------------------------------------------------------------


e-----------------------------------------------------------------------
B----------12---10---12---10--------10----------------------------------
G--------11--------------------11---------------------------------------
D-12---12---------------------------------------------------------------
A-----------------------------------------------------------------------
E-----------------------------------------------------------------------


e-----------------------------------------------------------------------
B----------14---12---14---12--------12----------------------------------
G--------13--------------------13---------------------------------------
D-14---14---------------------------------------------------------------
A-----------------------------------------------------------------------
E-----------------------------------------------------------------------


Part 3

e-----------------------------------------------------------------------
B-5-5.---5-7.---5.---3-3.---3-5.---3.-----------------------------------
G-6-6.---6-7.---6.---4-4.---4-6.---4.-----------------------------------
D-----------------------------------------------------------------------
A-----------------------------------------------------------------------
E-----------------------------------------------------------------------


e-----------------------------------------------------------------------
B-5-5.---5-7.---5.---3-3.---3-5.---3.-----------------------------------
G-6-6.---6-7.---6.---4-4.---4-6.---4.-----------------------------------
D-----------------------------------------------------------------------
A-----------------------------------------------------------------------
E-----------------------------------------------------------------------


Part 4

e---------------------------10.---12.---14------14---14.----------------
B-14.-----14~---------14.---12.---14.---15------15---15.----------------
G-14.-----14~---------14.-----------------------------------------------
D-----------------------------------------------------------------------
A-----------------------------------------------------------------------
E-----------------------------------------------------------------------


e-12-12.---12-10.---10.-------------------------------------------------
B-14-14.---14-12.---12.-------------------------------------------------
G-----------------------------------------------------------------------
D-----------------------------------------------------------------------
A-----------------------------------------------------------------------
E-----------------------------------------------------------------------


e-12-12.----12-14.----12.----10-10.----10-12.----10.--------------------
B-14-14.----14-15.----14.----12-12.----12-14.----12.--------------------
G-----------------------------------------------------------------------
D-----------------------------------------------------------------------
A-----------------------------------------------------------------------
E-----------------------------------------------------------------------


e-12-12.----12-14.----12.----10-10.----10-12.----10.--------------------
B-14-14.----14-15.----14.----12-12.----12-14.----12.--------------------
G-----------------------------------------------------------------------
D-----------------------------------------------------------------------
A-----------------------------------------------------------------------
E-----------------------------------------------------------------------


Part 5

e-----------------------------------------------------------------------
B-7.-----7.--------7.-----7.-----7.-----5.-----5.-----------------------
G-7.-----7.--------7.-----7.-----7.-----6.-----6.-----------------------
D-7.-----7.--------7.-----7.-----7.-----7.-----7.-----------------------
A-----------------------------------------------------------------------
E-----------------------------------------------------------------------


e-----------------------------------------------------------------------
B-14.-----12.-----10.-----9.-----9.-----9.-----7.-----7.-----7.---------
G-14.-----13.-----11.-----9.-----9.-----9.-----7.-----7.-----7.---------
D-14.-----14.-----12.-----9.-----9.-----9.-----7.-----7.-----7.---------
A-----------------------------------------------------------------------
E-----------------------------------------------------------------------


e-----------------------------------------------------------------------
B-5.-----5---7-5.---5.-----5---5-5.-------------------------------------
G-6.-----6---6-6.---4.-----4---6-4.-------------------------------------
D-7.-----7----------6.-----6--------------------------------------------
A-----------------------------------------------------------------------
E-----------------------------------------------------------------------


Part 6

e-12-12.----12-14.----12.----10-10.----10-12.----10.--------------------
B-14-14.----14-15.----14.----12-12.----12-14.----12.--------------------
G-----------------------------------------------------------------------
D-----------------------------------------------------------------------
A-----------------------------------------------------------------------
E-----------------------------------------------------------------------


e-12-12.----12-14.----12.----10-10.----10-12.----12~--------------------
B-14-14.----14-15.----14.----12-12.----12-14.----12~--------------------
G------------------------------------------------11~--------------------
D------------------------------------------------11~--------------------
A-----------------------------------------------------------------------
E-----------------------------------------------------------------------
 


GUITAR TABS A-Z >>



Sours: https://www.guitartabmaker.com/2013/06/buddy-holly-heartbeat-tab.html

You will also be interested:

.



20 21 22 23 24